Short Blues

1. Grimms

2. City Center

3. Live at Beatlefest 1997

 
         




 																												
(Grimms version)







Neils, ahem, "solo" intro:


E---------------------------------------------------------------------
B---(10)12->-10--(10)12--(10)12--(10)12--(10)12->-10--8^^10--8--------
G----------------------------------------------------------------9----
D---------------------------------------------------------------------
A---------------------------------------------------------------------
E---------------------------------------------------------------------



(Short Blues)

                               E     B7            E               E  

E---------------------------------------------------------------------
B------3--------2--------1-------------------------0|--------------0|-
G---4-----4--3-----3--2-----2--1--1--2-------------1|-------1------1|-
D---------------------------------0--1-------------2|--------------2|-
A---------------------------------------------------------------------
E------------------------------0-----------0-------0|--0----0------0|-
                    
                                         I woke up     this mornin' 

          E  E7b5

E---------------------------------------------------------------------
B---------0--3--------------------------------------------------------
G---1-----1--3--------------------------------------------------------
D---------2-----------------------------------------------------------
A---------------------------------------------------------------------
E---0--0--0--0--------------------------------------------------------



NB:
*(10)12 indicates that the first note is fretted, 
but sounded only as the second note written,
(ie. bend the string up to the second note). 
("->-" between the notes indicates unbending the string
 back down to the note written after it). (Sorry if this is confusing).



*"^^" indicates a hammer on if notes are ascending, or a pull off if notes are descending.

*"|" after a chord indicates cutting off that chord sharply.

*Chords are above tab.






~~~~~~~~~~~~~~~~~~~~~~~~~~~~~~~~~~~~~~~~~~~~~~~~~~~~~~~~~~~~~~~~~~~~~~



																											
(City Center)







                                  E     B

E------------------0--------0----------------------------------------- 
B---------3-----------------------------------------------------------
G------4-----4--3-----3--2-----2--1-----------------------------------
D------2--------------------------2--0--------------------------------
A---------------------------------2-----2-----------------------------
E---0-----------------------------------2-----------------------------

                   
    E     E6    E     E6    E     E6    E     E6

E---------------------------------------------------------------------
B---------------------------------------------------------------------
G---------------------------------------------------------------------
D---------------------------------------------------------------------
A---2-----4--4--2--2--4--4--2--2--4--4--2--2--4--4--------------------
E---0--0--0--0--0--0--0--0--0--0--0--0--0--0--0--0--------------------
                    
                                                 I


    E          E6      E         E6    E     E6  E7   

E---------------------------------------------------------------------
B--------------------------------------------2---3--------------------
G--------------------------------------------1---1--------------------
D--------------------------------------------2---2--------------------
A---2-------2--4--4----2------2--4--4--2------------------------------
E---0-------0--0--0----0------0--0--0--0--0---------------------------

    woke up       this mornin'                          



*Chords are above tab.





                  


~~~~~~~~~~~~~~~~~~~~~~~~~~~~~~~~~~~~~~~~~~~~~~~~~~~~~~~~~~~~~~~~~~~~~~~~~





(Beatlefest version)








                                  E  D  B                                 
E---------------------------------------------------------------------
B---------3--------2--------1-----------------------------------------
G------4-----4--3-----3--2-----2--1-----------------------------------
D---------------------------------2--0--------------------------------
A---------------------------------2--0--2-----------------------------
E---0-----------------------------------2-----------------------------



       A  G  E                 A  G  E                 A  G  E

E---------------------------------------------------------------------
B---------------------------------------------------------------------
G------2--0--------------------2--0--1-----------------2--0--1--------
D------2--0--2-----------------2--0--2-----------------2--0--2--------
A------------2-----------------------2-----------------------2--------
E---0--------0--0--0--0--0--0--------0--0--0--0--0--0--------0--------



                   A  G  E                 A  G  E

E---------------------------------------------------------------------
B---------------------------------------------------------------------
G------------------2--0--1-----------------2--0--1--------------------
D------------------2--0--2-----------------2--0--2--------------------
A------------------------2-----------------------2--------------------
E---0--0--0--0--0--------0--0--0--0--0--0--------0--0--0--0--0--0-----



    A  G  E                 A  G  E                

E---------------------------------------------------------------------
B---------------------------------------------------------------------
G---2--0--1-----------------2--0--1-----------------------------------
D---2--0--2-----------------2--0--2--------2--2--2----2------2--------
A---------2-----------------------2--------2--2--2----2------2--------
E---------0--0--0--0--0--0--------0--------0--0--0----0------0--------

                               I  woke up        this mornin'                    
                     


    A  G  E     E6 E7
                  
E---------------0---0-------------------------------------------------
B---------------2---3-------------------------------------------------
G---2--0--1-----1---1-------------------------------------------------
D---2--0--2-----2---2-------------------------------------------------
A---------2-----2---2-------------------------------------------------
E---------0--0--0---0-------------------------------------------------



*Chords are above tab.





          I can dig it.