I Must Be In Love

(All You Need Is Cash album/RWT version)

 
           


  




(All You Need Is Cash album/RWT version)



[Intro]:      G


*[Guitar interlude 1] X 2  [see notes below]



            G
     I feel good 


     I feel bad 

            D
     I feel happy 


     I feel sad 

                         Am        D
     Do you think I'm in love? (aahaah) 

                  G         *[Guitar interlude 1]
     I must be in love 



     G   
     I feel rich (oooo, la la la) 

        
     I feel poor (oooo, la la la) 

            D
     I'm in doubt (oooo, la la la) 


     I feel sure (oooo, la la la) 

             Am        D
     Am I in love? (aahaah) 

                  G     **[Guitar interlude 2]         
     I must be in love 



***[Bass notes]: < G A B >


Cmaj7    Fmaj7       Bm        E
     Any time of the day I can see 

                  (Am)
    (I can see her face) 

         Am           A        D
     Her face, when I close my eyes 

     D+
     Ooooooo! 


             G
     She's a dream (she's a dream) 


     She is real (she is real) 

             D
     Can't explain (can't explain) 


     How I feel (how I feel) 

             Am        D
     Am I in love? (aahaah) 

                  G     *[Guitar interlude 1]
     I must be in love 



****[Guitar instr - see tab in notes below]:


     G   *****(Dsus4)   D   Am   D   G




***[Bass notes]: < G A B >


Cmaj7    Fmaj7       Bm        E
     Any time of the day I can see 

                  (Am)
    (I can see her face) 

         Am           A        D
     Her face, when I close my eyes 

     D+
     Ooooooo! 



          G
     Am I dead (oooo, la la la) 


     Or alive? (oooo, la la la) 

            D
     Can my poor heart (oooo, la la la) 


     Survive? (oooo, la la la) 

             Am        D
     Am I in love? (aahaah) 

                  G     *[Guitar interlude 1]
     I must be in love 




     G
     I feel good (I feel good)


     I feel bad (I feel bad)

            D
     I feel happy (I feel happy)


     I feel sad (I feel sad)

             Am        D
     Am I in love? (aahaah) 

                  G    *[Guitar interlude 1]
     I must be in love

                       *[Guitar interlude 1]
     I must be in love 

                       *[Guitar interlude 1]
     I must be in love 

                      **[Guitar interlude 3]      G7
     I must be in love 



[RWT version repeat instrumental**** and fade]


      

NB:

      *During the introduction, and at certain parts throughout
       the song (indicated by *[Guitar interlude 1] ) a guitar
       interlude is played (see tab below).


       Guitar Intro/Guitar Interlude 1 (tab):

     G

E----3----------5---3-------3-------(5)--------
B-------5---3-----------5-------3--------------
G----------------------------------------------
D----------------------------------------------
A----------------------------------------------
E----------------------------------------------


-Chords are shown above tablature.
-Play twice for the introduction.
-The last note in the tablature, shown here in parentheses, is 
 omitted in some cases.


**A second guitar part, similar to the one shown above, is 
  played where indicated by [Guitar interlude 2]. Likewise,
  the last time the interlude is played in the song, a third 
  similar guitar part is played where indicated by [Guitar 
  interlude 3] (see tab below).


  Guitar interlude 2 (tab)

     G

E----3-----------5---3-------3----------------
B--------5---3-----------5--------------------
G---------------------------------------------
D---------------------------------------------
A---------------------------------------------
E---------------------------------------------


  Guitar interlude 3 (tab):
  (played last time only, omit for RWT version)

     G                       G7

E----3-----------5---3-----------------------
B--------5---3-----------5---6---5---3-------
G----------------------------------------0---
D--------------------------------------------
A--------------------------------------------
E--------------------------------------------



***Where indicated, bass notes are given. These
   bass notes are played on their own, without 
   chords. Note that they are NOT chords.
  (See tab below):

                  Bass notes:

With normal tuning:               With Drop D Tuning:

E--------------------         E------------------------
B--------------------         B------------------------
G--------------------         G------------------------
D--------------------         D------------------------
A----------0----2----         A----------0----2--------
E------3-------------         D-----5------------------

Bass:  G   A    B                   G    A    B

-Notes (NOT chords) are shown below tablature.
-See **** below for why Drop D tuning is shown here.


****Tablature for the guitar instrumental is given below.
    Note that there is a different solo for the "All You 
    Need Is Cash" album version (solo 1(a) and 1(b) ) to
    that of the Rutland Weekend Television (RWT) version 
   (solo 2).


   Solo 1(a): Rutles album version 
             (WITH DROP D TUNING) (Tab)

     G                               Dsus4         D

E-----------------------------------------------------------
B-----------------------------------------------------------
G-----------------------------------------------------------
D------------0----------------------------------------------
A----2---3-------0---2---------------0----------------------
D------------------------5---4---5-------2~~4~~2---0--------


     Am                       D

E-------------------------------------------------5---------
B------------------------5---(7)~~5-------5---7-------------
G----5---4-------4---5----------------7---------------------
D------------7----------------------------------------------
A-----------------------------------------------------------
D-----------------------------------------------------------


     G

E----7---7---7---7---8----9----10---------------------------
B----8---8---8---8---10---11---12---------------------------
G-----------------------------------------------------------
D-----------------------------------------------------------
A-----------------------------------------------------------
D-----------------------------------------------------------


(Refer to tab notes below Solo 1(b)  )

+++Note that this version has "Drop D" tuning, ie. THE BASS `E'
   STRING IS TUNED DOWN TO A D NOTE). This is to accommodate
   the lowest note of the guitar solo. However, if desired, the 
   solo can be played without changing the guitar's tuning. A
   version of this is given below (an octave higher, to allow 
   for the lowest D note).


   Solo 1(b): Rutles album version 
             (adapted for normal tuning) (tab)

     G                               Dsus4         D

E-----------------------------------------------------------
B-----------------------------------------------------------
G----4---5---7-------4--------------------------------------
D----------------7-------5---4---5---7----------------------
A----------------------------------------7~~9~~7---5--------
E-----------------------------------------------------------


     Am                       D

E-------------------------------------------------5---------
B------------------------5---(7)~~5-------5---7-------------
G----5---4-------4---5----------------7---------------------
D------------7----------------------------------------------
A-----------------------------------------------------------
D-----------------------------------------------------------


     G

E----7---7---7---7---8----9----10---------------------------
B----8---8---8---8---10---11---12---------------------------
G-----------------------------------------------------------
D-----------------------------------------------------------
A-----------------------------------------------------------
D-----------------------------------------------------------


Tab notes:
-Chords are given above tablature.
-Notes written such as: 7~~9~~7 indicate a string bend. Play the 
 first note written, in this case, the 7th fret of the A string, 
 and then bend the string while playing the note so that it's 
 pitch rises to that of the second note written, in this case, 
 the note on the 9th fret. The note is then allowed to return to 
 the original note given, ie. the note on the 7th fret in this 
 case. Where notes are written like this with numbers in parentheses, 
 eg. (7)~~5 the first note written in parentheses is fretted but not 
 played; the string is bent up to the second note written and that is
 the note that is heard. (ie. in these cases the notes indicated in 
 parentheses are not heard, but are just fretted in order to bend the 
 string up to the next note). These string bends don't have to be 
 played. If desired, just ignore the bends, etc, and play the notes as
 written (omitting the notes in parentheses).



Solo 2: RWT/Rutland Weekend Songbook Version (tab)


    G                               D

E----------------------------------------------------
B---0---1---3---0------------------------------------
G-------------------2---0-------0---2----------------
D---------------------------4-----------4---2---0----
A----------------------------------------------------
E----------------------------------------------------



                    Am

E----------------------------------------------------
B----------------------------------------------------
G-----------0-------2---2---0---2---0-------0--------
D---0---2-------2-----------------------2------------
A----------------------------------------------------
E----------------------------------------------------


    D                     G

E----------------------------------------------------
B----------------------------------------------------
G---2---2~~4~~2---0-------0---0-------0---2---4------
D---------------------2-----------0------------------
A----------------------------------------------------
E----------------------------------------------------


See tab notes above.



*****Dsus4 is a brief passing chord, occurring in the 
     instrumental of the "All You Need Is Cash" version.
     This chord can be omitted if desired, and a normal
     D chord can be played instead.




          Good, bad, happy, sad, make up you mind already! Oh, wait, you're in love, I forgot.