Noises For The Leg

(Stanshall)

 
           




No, no, pleeeeease! Not the leg!




[1]:

     Em

E---(12)-----------(12)------------(12)-----------(12)---------
B--------(12)-(12)-------(12)-(12)------(12)-(12)------(12)-(12)
G----9--------------9---------------9--------------9-----------
D---------9----9----------9----9---------9----9---------9----9-
A--------------------------------------------------------------
E--------------------------------------------------------------
     e    b    b    e     b    b    e    b    b    e    b    b



     D

E--------------------------------------------------------------
B---(15)-----------(15)-----------(15)-----------(15)----------
G----7---(14)-(14)--7---(14)-(14)--7---(14)-(14)--7---(14)-(14)
D---------7----7---------7----7---------7----7---------7----7--
A--------------------------------------------------------------
E--------------------------------------------------------------            
     d    a    a    d    a    a    d    a    a    d    a    a



     C

E--------------------------------------------------------------
B---(13)-----------(13)-----------(13)-----------(13)----------
G--------(12)-(12)------(12)-(12)------(12)-(12)------(12)-(12)
D----10-------------10-------------10-------------10-----------
A---------10---10--------10---10--------10---10--------10---10-
E--------------------------------------------------------------
     c    g    g    c    g    g    c    g    g    c    g    g                          



     B         B/C  B    B         B/C  B                                                     

E--------------------------------------------------------------
B---(12)-(12)-(13)-(12)-(12)-(12)-(13)-(12)--------------------
G------------------------8----8----9----8----------------------
D----9----9----10---9------------------------------------------
A--------------------------------------------------------------
E--------------------------------------------------------------
     b    b    c    b    d#   d#   e    d#                            
                        (b)  (b)  (c)  (b)


{repeat section [1]}



[2]:

     B         Am

E---------------------------------------------------------------
B---(13)-(12)-----------(12)-(13)-(13)-(15)-(13)-(13)-(12)------
G-------------(14)-(14)-----------------7-------------------(14)
D----10---9----7----7----9----10---10--------10---10---9-----7--
A---------------------------------------------------------------
E---------------------------------------------------------------
     c    b    a    a    b    c    c    d    c    c    b     a                



          B         B/C  B    

E---------------------------------------------------------------
B--------(12)-(12)-(13)-(12)------------------------------------
G---(14)--------------------------------------------------------
D----7----9----9----10---9--------------------------------------
A---------------------------------------------------------------
E---------------------------------------------------------------
     a    b    b    c    b                  


{repeat section [2]}



[3]:

     Em

E---(12)-----------(12)------------(12)-----------(12)---------
B--------(12)-(12)-------(12)-(12)------(12)-(12)------(12)-(12)
G----9--------------9---------------9--------------9-----------
D---------9----9----------9----9---------9----9---------9----9-
A--------------------------------------------------------------
E--------------------------------------------------------------
     e    b    b    e     b    b    e    b    b    e    b    b



     D

E--------------------------------------------------------------
B---(15)-----------(15)-----------(15)-----------(15)----------
G----7---(14)-(14)--7---(14)-(14)--7---(14)-(14)--7---(14)-(14)
D---------7----7---------7----7---------7----7---------7----7--
A--------------------------------------------------------------
E--------------------------------------------------------------                                    
     d    a    a    d    a    a    d    a    a    d    a    a



     C

E--------------------------------------------------------------
B---(13)-----------(13)-----------(13)-----------(13)----------
G--------(12)-(12)------(12)-(12)------(12)-(12)------(12)-(12)
D----10-------------10-------------10-------------10-----------
A---------10---10--------10---10--------10---10--------10---10-
E--------------------------------------------------------------
     c    g    g    c    g    g    c    g    g    c    g    g                          



     B         B/C  B    B    B/C  B                                                     
E--------------------------------------------------------------
B---(12)-(12)-(13)-(12)-(12)-(13)-(12)-------------------------
G--------------------------------------------------------------
D----9----9----10---9----9----10---9---------------------------
A--------------------------------------------------------------
E--------------------------------------------------------------
     b    b    c    b    b    c    b 


 
"I'll repeat that!"





NB:
*Accompanying chords are written above the tablature.

**For the benefit of those wanting to play this on other
instruments, the actual notes played are written in lower 
case below each line of tablature.

***Notes for the recorder are given in parentheses to 
avoid confusion with the other notes. Play EITHER all the 
notes written without parentheses, OR all the notes in 
parentheses (ie. not both at once).

****B/C indicates a B chord played with a C bass note
(can just play a B chord without the C bass note).





          I don't think I'd like to hear noises for other body parts... well, some, maybe...