Between Us

 
           






*[Bass]: < G A B >

  
      C 
  I'm looking at you 

         Cm
  You're looking at me 

    G                     E
  Between us, it's oh, so easy to see 

          Am                   Em
  We were made for each other, girl 

          Am            D  
  We were made for each other 



      G
  Between us 

**Bm/F#   
  Love has begun 

      Em
  Between us 

  G7
  Two hearts are one 

      C
  Between us 

  Cm                   G
  Nothing can come between us 



 < G A B >


      C
  Whatever we do 

      Cm
  Whenever we kiss 

    G                      E
  Between you and me, it's not hit n' miss 

          Am                   Em
  We were made for each other, girl 

          Am            D
  We were made for each other 



      G
  Between us 

  Bm/F#
  Love has begun 

      Em
  Between us 

  G7   
  Two hearts are one 

      C
  Between us 

  Cm                   G
  Nothing can come between us 



***[Instr - see below]:


 < G A B >  


  C  Cm  G  E  Am  Em  Am  D



      G
  Between us 

  Bm/F#
  Love has begun 

      Em
  Between us 

  G7
  Two hearts are one 

      C
  Between us 

  Cm                   G       G/F#  E
  Nothing can come between us 

      Am
  Between us 

  Cm                   G       G/F#  E
  Nothing can come between us 

      Am
  Between us 

  Cm  ****nc
  Nothing can come 

                       Eb       F    G              
  Nothing can come between us 


  




NB:

    *< G A B > are just bass notes, NOT chords. These 
     lead up to the chord to be played (see tab below):

 
               C 
 
E--------------0---
B--------------1---
G--------------0---
D--------------2---
A------0--2----3---
E---3---------(3)--


  < G  A  B >


-Bass notes indicated below tab.
-Note given in parentheses is optional.



   **Chords shown as Bm/F# and G/F# indicate the 
     chord to be played, followed by the accompanying
     bass note (eg. Bm/F# indicates a Bm chord with an
     F# bass). The chord can be played on it's own 
     without the bass note.



  ***Instrumental (tab):



   C              Cm

E--------------0-----------------------
B--1--1--1--3-----4--4--4--4--4--3--1--
G--------------------------------------
D--------------------------------------
A--------------------------------------
E--------------------------------------



   G           E
      
E--------------------------------------
B--3--0--0--1--3--1--0--0--0^1---------
G--------------------------------------
D--------------------------------------
A--------------------------------------
E--------------------------------------



   Am                Em

E--------------------------------------
B--0-----------0-----------------------
G-----2--0--2-----2--0-----------0--2--
D-----------------------2--2--2--------
A--------------------------------------
E--------------------------------------



   Am          D         G

E-----------0--2--0--2--5--3-----------
B--0--1--3-----------------------------
G--------------------------------------
D--------------------------------------
A--------------------------------------
E--------------------------------------

                 "...Between us..."



Tab notes:
-Chords are shown above tablature.

-'^' indicates a hammer-on between the two notes
 shown.

-The place where the vocals overlap with the instrumental
 is shown below tablature.

-Instrumental doesn't occur in the "All you Need Is
 Cash"/video version.


 ****nc indicates no chord is to be played.


*****The E chords used throughout the song can be replaced by
     E7 if desired (the vocals give it a seventh sound). (Note:
     E chords only, not Em).




          Before I met Helen, I though a tab was a diet soda... chords are fun, and educational!